0
SECTION
2
HEADER
9
$INSUNITS
70
1
9
$ACADVER
1
AC1014
9
$HANDSEED
5
FFFF
0
ENDSEC
0
SECTION
2
TABLES
0
TABLE
2
VPORT
5
8
100
AcDbSymbolTable
0
ENDTAB
0
TABLE
2
LTYPE
5
5
100
AcDbSymbolTable
0
LTYPE
5
14
100
AcDbSymbolTableRecord
100
AcDbLinetypeTableRecord
2
BYBLOCK
70
0
0
LTYPE
5
15
100
AcDbSymbolTableRecord
100
AcDbLinetypeTableRecord
2
BYLAYER
70
0
0
ENDTAB
0
TABLE
2
LAYER
5
2
100
AcDbSymbolTable
70
2
0
LAYER
5
50
100
AcDbSymbolTableRecord
100
AcDbLayerTableRecord
2
0
70
0
6
CONTINUOUS
0
ENDTAB
0
TABLE
2
STYLE
5
3
100
AcDbSymbolTable
70
1
0
STYLE
5
11
100
AcDbSymbolTableRecord
100
AcDbTextStyleTableRecord
2
STANDARD
70
0
0
ENDTAB
0
TABLE
2
VIEW
5
6
100
AcDbSymbolTable
70
0
0
ENDTAB
0
TABLE
2
UCS
5
7
100
AcDbSymbolTable
70
0
0
ENDTAB
0
TABLE
2
APPID
5
9
100
AcDbSymbolTable
70
2
0
APPID
5
12
100
AcDbSymbolTableRecord
100
AcDbRegAppTableRecord
2
ACAD
70
0
0
ENDTAB
0
TABLE
2
DIMSTYLE
5
A
100
AcDbSymbolTable
70
1
0
ENDTAB
0
TABLE
2
BLOCK_RECORD
5
1
100
AcDbSymbolTable
70
1
0
BLOCK_RECORD
5
1F
100
AcDbSymbolTableRecord
100
AcDbBlockTableRecord
2
*MODEL_SPACE
0
BLOCK_RECORD
5
1B
100
AcDbSymbolTableRecord
100
AcDbBlockTableRecord
2
*PAPER_SPACE
0
ENDTAB
0
ENDSEC
0
SECTION
2
BLOCKS
0
BLOCK
5
20
100
AcDbEntity
100
AcDbBlockBegin
2
*MODEL_SPACE
0
ENDBLK
5
21
100
AcDbEntity
100
AcDbBlockEnd
0
BLOCK
5
1C
100
AcDbEntity
100
AcDbBlockBegin
2
*PAPER_SPACE
0
ENDBLK
5
1D
100
AcDbEntity
100
AcDbBlockEnd
0
ENDSEC
0
SECTION
2
ENTITIES
0
CIRCLE
5
100
100
AcDbEntity
8
0
100
AcDbCircle
10
-1.365
20
-0.79000000000000004
30
0
40
0.036500000000000109
0
CIRCLE
5
101
100
AcDbEntity
8
0
100
AcDbCircle
10
-1.625
20
-0.73549999999999993
30
0
40
0.082500000000000046
0
CIRCLE
5
102
100
AcDbEntity
8
0
100
AcDbCircle
10
-1.885
20
-0.79000000000000004
30
0
40
0.036500000000000109
0
CIRCLE
5
103
100
AcDbEntity
8
0
100
AcDbCircle
10
-2.65625
20
-0.3075
30
0
40
0.087499999999999925
0
CIRCLE
5
104
100
AcDbEntity
8
0
100
AcDbCircle
10
-1.0062500000000001
20
-0.3075
30
0
40
0.087499999999999925
0
CIRCLE
5
105
100
AcDbEntity
8
0
100
AcDbCircle
10
-0.59375
20
-0.3075
30
0
40
0.087499999999999925
0
CIRCLE
5
106
100
AcDbEntity
8
0
100
AcDbCircle
10
-2.2437499999999999
20
-0.3075
30
0
40
0.087499999999999925
0
CIRCLE
5
107
100
AcDbEntity
8
0
100
AcDbCircle
10
-3.1249999999999996
20
-0.3075
30
0
40
0.053250000000000304
0
CIRCLE
5
108
100
AcDbEntity
8
0
100
AcDbCircle
10
-1.4187500000000002
20
-0.3075
30
0
40
0.087499999999999925
0
CIRCLE
5
109
100
AcDbEntity
8
0
100
AcDbCircle
10
-0.12500000000000011
20
-0.3075
30
0
40
0.053249999999999999
0
CIRCLE
5
110
100
AcDbEntity
8
0
100
AcDbCircle
10
-1.83125
20
-0.3075
30
0
40
0.087499999999999925
0
CIRCLE
5
111
100
AcDbEntity
8
0
100
AcDbCircle
10
-1.625
20
-0.3075
30
0
40
0.05600000000000005
0
LWPOLYLINE
5
112
100
AcDbEntity
8
0
100
AcDbPolyline
90
8
70
1
43
0.0
10
-1.8541011235955061
20
-0.88999999999999979
42
-0.061563535071042383
10
-1.9149690668931934
20
-0.88247699577219574
10
-3.0173675702561553
20
-0.60574670479980086
42
-0.8840134706267585
10
-2.9424999999999999
20
0
10
-0.30750000000000033
20
-3.8185771255439065e-014
42
-0.88401347062660296
10
-0.23263242974375001
20
-0.60574670479973791
10
-1.3350309331068038
20
-0.88247699577219407
42
-0.061563535071047955
10
-1.3958988764044988
20
-0.89000000000000001
0
ENDSEC
0
SECTION
2
OBJECTS
0
DICTIONARY
5
C
100
AcDbDictionary
3
ACAD_GROUP
350
D
3
ACAD_MLINESTYLE
350
17
0
DICTIONARY
5
D
100
AcDbDictionary
0
DICTIONARY
5
1A
330
C
100
AcDbDictionary
0
DICTIONARY
5
17
100
AcDbDictionary
0
ENDSEC
0
EOF
